Band : Tool
Album: 10,000 Days
Track: 4
Song : 10,000 Days (Wings, Part 2)

Part : Guitar
Tuning: drop D

Tabbed: Cameron Winters
Website : CameronWinters.com

Visit : Tooltabs.net

Legend

nh - natural harmonic

ph - pinch harmonic

pm - palm mute

x - muted string

h - hammer on

p - pull off

\\ - slide down

// - slide up

b - bend

~~ - vibrato

<7> - natural harmonic

x/// - pick scrape (directions same as slide)



  E|-------------------|--
  B|-------------------|--
  G|-------------------|--
  D|--10--9--10--9--7--|--
  A|-------------------|--
  D|-------------------|--

  E|-------------------------|--
  B|-------------------------|--
  G|-------------------------|--
  D|--10--9--10--9--5--5--7--|--
  A|-------------------------|--
  D|-------------------------|--

  E|-------------|------------|---------------------------------------------|--
  B|-------------|------------|---------------------------------------------|--
  G|-------------|------------|---------------------------------------------|--
  D|--14---------|--14--------|--15---------17---------15---------15--------|--
  A|------15--0--|------0--0--|------17--0------15--0------17--0------0--0--|--
  D|-------------|------------|---------------------------------------------|--

  E|------------------------------------------|
  B|------------------------------------------|
  G|--------------------------------12--------|
  D|--14--------12--------14------------------|
  A|------0--0------0--0------0--0------0--0--|
  D|------------------------------------------|

  E|--------------------------------------------------------------------------|--
  B|--------------------------------------------------------------------------|--
  G|--5--------5--------5--------5--------4--------4--------4--------4--------|--
  D|-----7--------7--------7--------7--------7--------7--------7--------7-----|--
  A|--------0--------0--------0--------0--------0--------0--------0--------0--|--
  D|--------------------------------------------------------------------------|--

  E|--------------------------------------------------------------------------|--
  B|--------------------------------------------------------------------------|--
  G|--------------------------------------------------------------------------|--
  D|--7--------5--------7--------7--------7--------5--------7--------7--------|--
  A|-----0--0-----0--0-----0--0-----0--0-----0--0-----0--0-----0--0-----0--0--|--
  D|--------------------------------------------------------------------------|--

  E|--------------|--
  B|--------------|--
  G|--------------|--
  D|--7--7--7--7--|--
  A|--0--0--0--0--|--
  D|--------------|--

  E|--------------------------------------------------------------|--
  B|--------------------------------------------------------------|--
  G|-------------------------------------------------------17-----|--
  D|--10-----10/15--14-----10/17--19-----17-----19--20------------|--
  A|--------------------------------------------------------------|--
  D|--------------------------------------------------------------|--

  E|------------------------------------------------------------------------------------------|--
  B|------------------------------------------------------------------------------------------|--
  G|------------------------------------------------------------------------------------------|--
  D|--19--20--19--19--19--19--19--19--19--14---------14---------14---------14---------14--15--|--
  A|------------------------------------------15--0------15--0------15--0------15--0----------|--
  D|------------------------------------------------------------------------------------------|--

  E|-------------------------------------------|--
  B|-------------------------------------------|--
  G|-------------------------------------------|--
  D|--14---------14--15-----14--15--14-----14--|--
  A|------15--0--------------------------------|--
  D|-------------------------------------------|--


  E|--------------------------------------------|--
  B|--------------------------------------------|--
  G|--------------------------------------------|--
  D|--10--9--10--9--5--5--7--5h7--5h7--5h7p5h7--|--
  A|--------------------------------------------|--
  D|--------------------------------------------|--

  E|-----------------------------------------------------------|--
  B|-----------------------------------------------------------|--
  G|-----------------------------------------------------------|--
  D|--10--9--10--9--12--12--14--12h14--12h14--12h14--12h14b14--|--
  A|-----------------------------------------------------------|--
  D|-----------------------------------------------------------|--

  E|-------------------------------------------------|--
  B|-------------------------------------------------|--
  G|-------------------------------------------------|--
  D|--10--9--10--9--5--5--7--5--7--5--7--5--7--5--7--|--
  A|-------------------------------------------------|--
  D|-------------------------------------------------|--

  E|---------------------------------------------------------------|--
  B|---------------------------------------------------------------|--
  G|---------------------------------------------------------------|--
  D|--10--9--10--9--12--12--14--12--14--12--14--12--14--12--14b14--|--
  A|---------------------------------------------------------------|--
  D|---------------------------------------------------------------|--

  E|------------------------|--
  B|------------------------|--
  G|------------------------|--
  D|------------------------|--
  A|------------------------|--
  D|--7--5--7--10--3--0--3--|--

  E|---------------------------|--
  B|---------------------------|--
  G|---------------------------|--
  D|---------------------------|--
  A|---------------------------|--
  D|--7--5--7--10--15--12--10--|--

  E|------------------------|--
  B|------------------------|--
  G|------------------------|--
  D|------------------------|--
  A|------------------------|--
  D|--7--5--7--10--3--0--5--|--

  E|------------------------------------|--
  B|------------------------------------|--
  G|------------------------------------|--
  D|------------------------------------|--
  A|------------------------------------|--
  D|--7--5--7--10--7--0--5--7--0--2--3--|--

  E|---------------------|-----------------|-------------------|---------------------|--
  B|---------------------|-----------------|-------------------|---------------------|--
  G|---------------------|-----------------|-------------------|---------------------|--
  D|---------------------|-----------------|-------------------|---------------------|--
  A|---------------------|-----------------|-------------------|-------------10------|--
  D|--7--5--7--10--7--0--|--5--7--0--2--3--|--5--7--0--15--17--|--15--12--0------12--|--


  E|------|--
  B|------|--
  G|------|--
  D|--10--|--
  A|--10--|--
  D|--10--|--


  (NOTE THE "9" on the starred chord, it's accurate, confirmed from live videos.)
  E|----------------------------------------|--
  B|----------------------------------------|--
  G|------------------*---------------------|--
  D|--9--0--9--12--9--0--9--12--5--2--5--0--|--
  A|--9--0--9--12--9--9--9--12--5--2--5--0--|--
  D|--9--0--9--12--9--0--9--12--5--2--5--0--|--


  E|-----------------------------------------------------------|--
  B|-----------------------------------------------------------|--
  G|-----------------------------------------------------------|--
  D|-----------2-----------------2-----------------2--------3--|--
  A|--0-----------0-----0-----------0-----0-----------0-----3--|--
  D|-----0--0--------0-----0--0--------0-----0--0--------0--3--|--

  E|-------------|--
  B|-------------|--
  G|-------------|--
  D|--3/4/5/6/7--|--
  A|--3/4/5/6/7--|--
  D|--3/4/5/6/7--|--


  E|-------------------------------------|--
  B|-------------------------------------|--
  G|-------------------------------------|--
  D|-----5--------10---------15------14--|--
  A|--3-----3/8------8/17--------17------|--
  D|-------------------------------------|--

  E|--------------------|--
  B|--------------------|--
  G|--------------------|--
  D|--10--12------------|--
  A|----------10--12----|--
  D|--------------------|--