Band : Tool
Album: 10,000 Days
Track: 7
Song : Lost Keys (Blame Hofmann)

Part : Guitar
Tuning: drop D

Tabbed: Cameron Winters
Website : CameronWinters.com

Visit : Tooltabs.net

Legend

nh - natural harmonic

ph - pinch harmonic

pm - palm mute

x - muted string

h - hammer on

p - pull off

\\ - slide down

// - slide up

b - bend

~~ - vibrato

<7> - natural harmonic

x/// - pick scrape (directions same as slide)



  Lol, I'm not seriously tabbing out this song note for note.
  You got this fam. Believe in yourself. This is the riff.

  E|-------------------------------------------------|--
  B|-------------------------------------------------|--
  G|-------------------------------------------------|--
  D|--------0--------0--------0--------0----------0--|--
  A|-----0--------3--------0--------3---------10-----|--
  D|--0--------3--------0--------3--------10---------|--

  Sometimes he throws in one of these bad boys.

  E|-----|--
  B|-----|--
  G|--2--|--
  D|-----|--
  A|-----|--
  D|-----|--

  But then he's also got this guy up his sleeve.

  E|-------------|--
  B|-------------|--
  G|--0h2-----0--|--
  D|-------------|--
  A|-------------|--
  D|-------------|--

  Cool? Cool. Now...onto Rosetta Stoned...