Band : Tool
Album: 10,000 Days
Track: 3
Song : Wings for Marie, Part 1

Part : Guitar
Tuning: drop D

Tabbed: Cameron Winters
Website : CameronWinters.com

Visit : Tooltabs.net

Legend

nh - natural harmonic

ph - pinch harmonic

pm - palm mute

x - muted string

h - hammer on

p - pull off

\\ - slide down

// - slide up

b - bend

~~ - vibrato

<7> - natural harmonic

x/// - pick scrape (directions same as slide)



  Note:
  This tab is not accurate on the timing, just the notes.
  I will get back to this later and make the length of the riffs correct.

  Start super fast and slow down gradually

  E|-------------|--
  B|-------------|--
  G|-------------|--
  D|--14---------|--
  A|-----h15p0---|--
  D|-------------|--

  (Alternate between these two riffs)
  E|------------|-------------|--
  B|------------|-------------|--
  G|------------|-------------|--
  D|--14--------|--14---------|--
  A|------0--0--|------15--0--|--
  D|------------|-------------|--

  E|-------------------------------------------------------------------------------------|--
  B|-------------------------------------------------------------------------------------|--
  G|---------------------------------------------------------------------------12--------|--
  D|--15---------17---------15---------15--------14--------12--------14------------------|--
  A|------17--0------15--0------17--0------0--0------0--0------0--0------0--0------0--0--|--
  D|-------------------------------------------------------------------------------------|--

  E|---------------------------------------------------------|--
  B|---------------------------------------------------------|--
  G|----------------------------------------------------12---|--
  D|--14--------14--------14--------14--------14-------------|--
  A|------0--0------0--0------0--0------0--0------0--0-------|--
  D|---------------------------------------------------------|--

  E|------------|-------------|--
  B|------------|-------------|--
  G|------------|-------------|--
  D|--14--------|--14---------|--
  A|------0--0--|------15--0--|--
  D|------------|-------------|--

  E|-------------------------------------------------------------------------------------|--
  B|-------------------------------------------------------------------------------------|--
  G|---------------------------------------------------------------------------12--------|--
  D|--15---------17---------15---------15--------14--------12--------14------------------|--
  A|------17--0------15--0------17--0------0--0------0--0------0--0------0--0------0--0--|--
  D|-------------------------------------------------------------------------------------|--

  E|---------------------------------------------------------|--
  B|---------------------------------------------------------|--
  G|----------------------------------------------------12---|--
  D|--14--------14--------14--------14--------14-------------|--
  A|------0--0------0--0------0--0------0--0------0--0-------|--
  D|---------------------------------------------------------|--

  E|------------|-------------|--
  B|------------|-------------|--
  G|------------|-------------|--
  D|--14--------|--14---------|--
  A|------0--0--|------15--0--|--
  D|------------|-------------|--

  E|-------------------------------------------------------------------------------------|--
  B|-------------------------------------------------------------------------------------|--
  G|---------------------------------------------------------------------------12--------|--
  D|--15---------17---------15---------15--------14--------12--------14------------------|--
  A|------17--0------15--0------17--0------0--0------0--0------0--0------0--0------0--0--|--
  D|-------------------------------------------------------------------------------------|--

  E|---------------------------------------------------------|--
  B|---------------------------------------------------------|--
  G|----------------------------------------------------12---|--
  D|--14--------14--------14--------14--------14-------------|--
  A|------0--0------0--0------0--0------0--0------0--0-------|--
  D|---------------------------------------------------------|--

  E|------------|-------------|--
  B|------------|-------------|--
  G|------------|-------------|--
  D|--14--------|--14---------|--
  A|------0--0--|------15--0--|--
  D|------------|-------------|--

  E|-------------------------------------------------------------------------------------|--
  B|-------------------------------------------------------------------------------------|--
  G|---------------------------------------------------------------------------12--------|--
  D|--15---------17---------15---------15--------14--------12--------14------------------|--
  A|------17--0------15--0------17--0------0--0------0--0------0--0------0--0------0--0--|--
  D|-------------------------------------------------------------------------------------|--

  E|---------------------------------------------------------|--
  B|---------------------------------------------------------|--
  G|----------------------------------------------------12---|--
  D|--14--------14--------14--------14--------14-------------|--
  A|------0--0------0--0------0--0------0--0------0--0-------|--
  D|---------------------------------------------------------|--

  E|------------|-------------|--
  B|------------|-------------|--
  G|------------|-------------|--
  D|--14--------|--14---------|--
  A|------0--0--|------15--0--|--
  D|------------|-------------|--

  E|-------------------------------------------------------------------------------------|--
  B|-------------------------------------------------------------------------------------|--
  G|---------------------------------------------------------------------------12--------|--
  D|--15---------17---------15---------15--------14--------12--------14------------------|--
  A|------17--0------15--0------17--0------0--0------0--0------0--0------0--0------0--0--|--
  D|-------------------------------------------------------------------------------------|--

  E|---------------------------------------------------------|--
  B|---------------------------------------------------------|--
  G|----------------------------------------------------12---|--
  D|--14--------14--------14--------14--------14-------------|--
  A|------0--0------0--0------0--0------0--0------0--0-------|--
  D|---------------------------------------------------------|--

  E|------------|-------------|--
  B|------------|-------------|--
  G|------------|-------------|--
  D|--14--------|--12---------|--
  A|------0--0--|------0--0---|--
  D|------------|-------------|--

  E|--------------------------------------------------------|--
  B|--------------------------------------------------------|--
  G|------------------------------------------12--------12--|--
  D|--11--------11--------11--------11----------------------|--
  A|------0--0------0--0------0--0------0--0------0--0------|--
  D|--------------------------------------------------------|--

  E|--------------------------------------------------------------------------|--
  B|--------------------------------------------------------------------------|--
  G|--------------------------------------------------------------------------|--
  D|--2--------3--------5--------3--------2--------3--------0--------0--------|--
  A|-----0--0-----0--0-----0--0-----0--0-----0--0-----0--0-----0--0-----0--0--|--
  D|--------------------------------------------------------------------------|--

  E|-----------|--
  B|-----------|--
  G|-----------|--
  D|--2--------|--
  A|-----3--0--|--
  D|-----------|--

  E|--------------------------------------------------------------------------|--
  B|--------------------------------------------------------------------------|--
  G|--------------------------------------------------------------------------|--
  D|--2--------3--------5--------3--------2--------3--------0--------0--------|--
  A|-----0--0-----0--0-----0--0-----0--0-----0--0-----0--0-----0--0-----0--0--|--
  D|--------------------------------------------------------------------------|--

  E|---------------------------------------------------------------------|--
  B|---------------------------------------------------------------------|--
  G|---------------------------------------------------------------------|--
  D|--------------------12--------11--------9--------11--------9h10p9----|--
  A|--9--------9------------9---------9--------9---------9---------------|--
  D|-----9--9-----9--9---------9---------9--------9---------9------------|--


  (NOTE THE "9" on the starred chord, it's accurate, confirmed from live videos.)
  E|----------------------------------------|--
  B|----------------------------------------|--
  G|------------------*---------------------|--
  D|--9--0--9--12--9--0--9--12--5--2--5--0--|--
  A|--9--0--9--12--9--9--9--12--5--2--5--0--|--
  D|--9--0--9--12--9--0--9--12--5--2--5--0--|--


  E|-----------------------------------------------------------|--
  B|-----------------------------------------------------------|--
  G|-----------------------------------------------------------|--
  D|-----------2-----------------2-----------------2--------3--|--
  A|--0-----------0-----0-----------0-----0-----------0-----3--|--
  D|-----0--0--------0-----0--0--------0-----0--0--------0--3--|--

  E|-------------|--
  B|-------------|--
  G|-------------|--
  D|--3/4/5/6/7--|--
  A|--3/4/5/6/7--|--
  D|--3/4/5/6/7--|--


  E|-------------------------------------|--
  B|-------------------------------------|--
  G|-------------------------------------|--
  D|-----5--------10---------15------14--|--
  A|--3-----3/8------8/17--------17------|--
  D|-------------------------------------|--

  E|--------------------------|--
  B|--------------------------|--
  G|--------------------------|--
  D|--10--12------------------|--
  A|----------10--12h13p12----|--
  D|--------------------------|--