Band : Tool
Album: Fear Inoculum
Track: 7
Song : Culling Voices

Part : Guitar
Tuning: drop D

Tabbed: Cameron Winters
Website : CameronWinters.com

Visit : Tooltabs.net

Legend

nh - natural harmonic

ph - pinch harmonic

pm - palm mute

x - muted string

h - hammer on

p - pull off

// - slide down

\\ - slide up

b - bend

~~ - vibrato

<7> - natural harmonic

x/// - pick scrape (directions same as slide)



  Guitar 1
  E|-----------------------------------------------------------------------------------------|--
  B|------7----------7----------7----------7----------7----------7----------7------7------7--|--
  G|--11-----11--11-----11--11-----11--11-----11--11-----11--11-----11--11-----11-----11-----|--
  D|-----------------------------------------------------------------------------------------|--
  A|-----------------------------------------------------------------------------------------|--
  D|-----------------------------------------------------------------------------------------|--

  Guitar 1
  E|-----------------------------------------------------------------------------|--
  B|-----7-----7-----7-----7-----7-----7-----7-----7-----7------8------8------8--|--
  G|--9-----9-----9-----7-----7-----7-----9-----9-----9-----11-----11-----11-----|--
  D|-----------------------------------------------------------------------------|--
  A|-----------------------------------------------------------------------------|--
  D|-----------------------------------------------------------------------------|--

  Guitar 2
  E|--------------------------|----------------------------------------|--
  B|--------------------------|----------------------------------------|--
  G|--------------------------|-------------------------------0--------|--
  D|--4--4-----5/4--4-4--4-4--|--2--2-----0--0--------0-----5-----5----|--
  A|--2--2--x--2-2--2p0--0h2--|--2--2--x--2--2--x--3--3--x--3---0h3p0--|--
  D|--------------------------|--------------------5--5----------------|--

  Guitar 3
  E|------------------------------------------------------------------------|--
  B|------------------------------------------------------------------------|--
  G|------------------------------------------------------------------------|--
  D|--9--9-----12--11--9h11--9--9-----12--11--9h11---2-----0-------0--------|--
  A|--9--9-----9---9---9-----9--9-----9---9---9------2-2---0-0---3-3---3\7--|--
  D|--9--9-----9---9---9-----9--9-----9---9---9------2-2---0-0---5-5---3\7--|--

  Guitar 2 and 3
  E|--------------------------------------------------------|--
  B|--------8--------11----------11-------10----------10----|--
  G|--------7--------10----------10-------9-----------9-----|--
  D|--------5--------9-----------9--------7-----------7-----|--
  A|--5--5--5--5--9--9--2--2--9--9--7--7--7--7--7--7--7--7--|--
  D|--5--5--5--5--9--9--2--2--9--9--7--7--7--7--7--7--7--7--|--

  Guitar 3
  E|-----------------------|---------------------------------------|--
  B|-----------------------|---------------------------------------|--
  G|-----------------------|---------------------------------------|--
  D|-----------------9-----|---------------------------------------|--
  A|-----9--------9-----9--|------14---------12--------5-----------|--
  D|--9--------9-----------|--14---------12---------5--------3--7--|--


  E|---------------|--
  B|---------------|--
  G|---------------|--
  D|---------5-----|--
  A|---9-----5--2--|--
  D|--\9-----5--2--|--

  E|---------------------------------------------------|--
  B|---------------------------------------------------|--
  G|---------------------------------------------------|--
  D|---------------------------------------------------|--
  A|-----------------12-----------------------7--------|--
  D|--9--9--x--12h14----14p12p0--9--9--x--7h9---9p7p0--|--


  E|-------------------------------------|--
  B|-------------------------------------|--
  G|-------------------------------------|--
  D|--------------7p0---------------7h9--|--
  A|--------7h9--------------7h9---------|--
  D|--7h9--------------7h9---------------|--

  E|-------------------------|-----------------------------|--
  B|-------------------------|-----------------------------|--
  G|-------------------------|-----------------------------|--
  D|--9--9-----12--14p0h7p0--|--9--9-----12h14--10---10h12-|--
  A|--9--9-----12--14p0h7p0--|--9--9-----12h14--10---10h12-|--
  D|--9--9--x--12--14p0h7p0--|--9--9--x--12h14--10---10h12-|--

  E|-------------------------|-------------------------------|--
  B|-------------------------|-------------------------------|--
  G|-------------------------|-------------------------------|--
  D|--9--9-----12--14p0h7p0--|--9--9-----12h14--10h12--10p0--|--
  A|--9--9-----12--14p0h7p0--|--9--9-----12h14--10h12--10p0--|--
  D|--9--9--x--12--14p0h7p0--|--9--9--x--12h14--10h12--10p0--|--

  E|-------------------------|-----------------------------|--
  B|-------------------------|-----------------------------|--
  G|-------------------------|-----------------------------|--
  D|--9--9-----12--14p0h7p0--|--9--9-----12h14--10---10h12-|--
  A|--9--9-----12--14p0h7p0--|--9--9-----12h14--10---10h12-|--
  D|--9--9--x--12--14p0h7p0--|--9--9--x--12h14--10---10h12-|--

  E|-------------------------|------------------------------------------------|--
  B|-------------------------|------------------------------------------------|--
  G|-------------------------|------------------------------------------------|--
  D|--9--9-----12--14p0h7p0--|--9--9-----12h14--10----10-10p0--7--0-10--10p0--|--
  A|--9--9-----12--14p0h7p0--|--9--9-----12h14--10----10-10p0--7--0-10--10p0--|--
  D|--9--9--x--12--14p0h7p0--|--9--9--x--12h14--10----10-10p0--7--0-10--10p0--|--

  (this is the basic pattern. strumming varies.)
  E|----------------------------------------------------|--
  B|--------11----------5-----------11-------3------13--|--
  G|--------10----------4-----------10-------2------12--|--
  D|--9--9--9--9--2--2--2--2--9--9--9--9--0--0--10--10--|--
  A|--9--9--9--9--2--2--2--2--9--9--9--9--0--0--10--10--|--
  D|--9--9--9--9--2--2--2--2--9--9--9--9--0--0--10--10--|--

  E|-----|--
  B|-----|--
  G|-----|--
  D|--9--|--
  A|--9--|--
  D|--9--|--

  E|---------------------------------------------------------------------|--
  B|--------11----11-------5-----5--------11----10----3------13--13--13--|--
  G|--------10----10-------4-----4--------10----10----2------12--12--12--|--
  D|--9--9--9--9--9--2--2--2--2--2--9--9--9--9--9--0--0--10--10--10--10--|--
  A|--9--9--9--9--9--2--2--2--2--2--9--9--9--9--9--0--0--10--10--10--10--|--
  D|--9--9--9--9--9--2--2--2--2--2--9--9--9--9--9--0--0--10--10--10--10--|--


  E|-----------------------------------------------------------|--
  B|--------11----11-------5-----5--------11----10-------------|--
  G|--------10----10-------4-----4--------10----10-------------|--
  D|--9--9--9--9--9--2--2--2--2--2--9--9--9--9--9--5--0--4--7--|--
  A|--9--9--9--9--9--2--2--2--2--2--9--9--9--9--9--5--0--4--7--|--
  D|--9--9--9--9--9--2--2--2--2--2--9--9--9--9--9--5--0--4--7--|--

  E|-----|--
  B|-----|--
  G|-----|--
  D|--9--|--
  A|--9--|--
  D|--9--|--