Band : Tool
Album: Fear Inoculum
Track: 6
Song : Descending

Part : Guitar
Tuning: drop D

Tabbed: Cameron Winters
Website : CameronWinters.com

Visit : Tooltabs.net

Legend

nh - natural harmonic

ph - pinch harmonic

pm - palm mute

x - muted string

h - hammer on

p - pull off

// - slide down

\\ - slide up

b - bend

~~ - vibrato

<7> - natural harmonic

x/// - pick scrape (directions same as slide)



  with delay

  E|--------------------------------|--
  B|--------------------------------|--
  G|------7-------------------------|--
  D|--10------------7-----7------0--|-- X4
  A|------------10-----8-----10-----|--
  D|--------------------------------|--

  E|----------------------------------------|--
  B|----------------------------------------|--
  G|----------------------------------------|--
  D|-----7-----7-----7------7-----7------0--|-- X2
  A|--5-----7-----8-----10-----8-----10-----|--
  D|----------------------------------------|--

  E|--------------------------------|--
  B|--------------------------------|--
  G|------7-------------------------|--
  D|--10------------7-----7------0--|-- X4
  A|------------10-----8-----10-----|--
  D|--------------------------------|--

  E|----------------------------------------|--
  B|----------------------------------------|--
  G|----------------------------------------|--
  D|-----7-----7-----7------7-----7------0--|-- X2
  A|--5-----7-----8-----10-----8-----10-----|--
  D|----------------------------------------|--

  E|--------------------------|--
  B|--------------------------|--
  G|--------------------------|--
  D|-----3p0-----0--2p0-------|-- X2
  A|---------------------3p0--|--
  D|--0-------0---------------|--

  E|--------------------------|---------------------|--
  B|--------------------------|---------------------|--
  G|--------------------------|---------------------|--
  D|-----3p0-----0--2p0-------|-----5-----5------7--|-- X1
  A|---------------------3p0--|---------------------|--
  D|--0-------0---------------|--8-----3-----10-----|--

  E|--------------------------|--
  B|--------------------------|--
  G|--------------------------|--
  D|-----3p0-----0--2p0-------|-- X2
  A|---------------------3p0--|--
  D|--0-------0---------------|--

  E|--------------------------|---------------------|--
  B|--------------------------|---------------------|--
  G|--------------------------|---------------------|--
  D|-----3p0-----0--2p0-------|-----5-----5------7--|-- X1
  A|---------------------3p0--|---------------------|--
  D|--0-------0---------------|--8-----3-----10-----|--

  E|--------------------------|--
  B|--------------------------|--
  G|--------------------------|--
  D|-----3p0-----0--2p0-------|-- X2
  A|---------------------3p0--|--
  D|--0-------0---------------|--

  E|--------------------------|---------------------|--
  B|--------------------------|---------------------|--
  G|--------------------------|---------------------|--
  D|-----3p0-----0--2p0-------|-----5-----5------7--|-- X3
  A|---------------------3p0--|---------------------|--
  D|--0-------0---------------|--8-----3-----10-----|--

  delay off

  E|--------------------------------|--
  B|--------------------------------|--
  G|--------------------------------|--
  D|-----3p0-----3p0-----3p0--5-----|-- X4
  A|--------------------------------|--
  D|--0-------3-------5----------3--|--

  E|--------------------|--
  B|--------------------|--
  G|--------------------|--
  D|--------------------|-- X8
  A|--------------------|--
  D|--0-----0-----0--0--|--

  with delay

  E|--------------------------------|--
  B|--------------------------------|--
  G|------7-------------------------|--
  D|--10------------7-----7------0--|-- X4
  A|------------10-----8-----10-----|--
  D|--------------------------------|--

  E|--------------------------|--
  B|--------------------------|--
  G|--------------------------|--
  D|-----3p0-----0--2p0-------|-- X2
  A|---------------------3p0--|--
  D|--0-------0---------------|--

  E|--------------------------|---------------------|--
  B|--------------------------|---------------------|--
  G|--------------------------|---------------------|--
  D|-----3p0-----0--2p0-------|-----5-----5------7--|-- X1
  A|---------------------3p0--|---------------------|--
  D|--0-------0---------------|--8-----3-----10-----|--

  E|--------------------------|--
  B|--------------------------|--
  G|--------------------------|--
  D|-----3p0-----0--2p0-------|-- X2
  A|---------------------3p0--|--
  D|--0-------0---------------|--

  E|--------------------------|---------------------|--
  B|--------------------------|---------------------|--
  G|--------------------------|---------------------|--
  D|-----3p0-----0--2p0-------|-----5-----5------7--|-- X3
  A|---------------------3p0--|---------------------|--
  D|--0-------0---------------|--8-----3-----10-----|--

  E|--------------------------------|--
  B|--------------------------------|--
  G|--------------------------------|--
  D|-----3p0-----3p0-----3p0--5-----|-- X3
  A|--------------------------------|--
  D|--0-------3-------5----------3--|--

  delay off

  E|-----------|--
  B|-----3-----|--
  G|-----2-----|--
  D|-----0-----|--
  A|-----0-----|--
  D|-----0-----|--

  E|--------------------|--
  B|--------------------|--
  G|--------------------|--
  D|--------------------|-- X7
  A|--------------------|--
  D|--0-----0-----0--0--|--

  E|--------------------|-----|--
  B|--------------------|-----|--
  G|--------------------|-----|--
  D|--------------------|-----|-- X1
  A|--------------------|-----|--
  D|--0-----0-----0--0--|--0--|--

  increase intensity

  E|--------------------------------------------------|--
  B|--------------------------------------------------|--
  G|--------------------------------------------------|--
  D|--------------------------------------------------|-- x3
  A|--12---------12---------12---------12---------12--|--
  D|------15--0------15--0------15--0------15--0------|--

  E|------------------------|--
  B|------------------------|--
  G|------------------------|--
  D|-----3p0-----0--2p0-----|-- X2
  A|---------------------3--|--
  D|--0-------0-------------|--

  E|--------------------------|---------------------|--
  B|--------------------------|---------------------|--
  G|--------------------------|---------------------|--
  D|-----3p0-----0--2p0-------|-----5-----5------7--|-- X1
  A|---------------------3p0--|---------------------|--
  D|--0-------0---------------|--8-----3-----10-----|--

  E|------------------------|--
  B|------------------------|--
  G|------------------------|--
  D|-----3p0-----0--2p0-----|-- X2
  A|---------------------3--|--
  D|--0-------0-------------|--

  E|--------------------------|---------------------|--
  B|--------------------------|---------------------|--
  G|--------------------------|---------------------|--
  D|-----3p0-----0--2p0-------|-----5-----5------7--|-- X1
  A|---------------------3p0--|---------------------|--
  D|--0-------0---------------|--8-----3-----10-----|--

  E|--------------------------------------------------------------------------------------|--
  B|--------------------------------------------------------------------------------------|--
  G|--------------------------------------------------------------------------------------|--
  D|-----3p0-----0--2p0----------3p0-----0--2p0----------3p0-----0--2p0----------5-----3--|--
  A|---------------------3p0---------------------3p0---------------------3p0--------------|--
  D|--0-------0---------------0-------0---------------3-------3---------------8-----5-----|--

  E|-----------------------------------------------------------------------------------------------|--
  B|-----------------------------------------------------------------------------------------------|--
  G|-----------------------------------------------------------------------------------------------|--
  D|-----3p0-----0--2p0----------3p0-----0--2p0----------3p0-----0--2p0----------3p0-----3p0--5----|--
  A|---------------------3p0---------------------3p0---------------------3p0-----------------------|--
  D|--0-------0---------------0-------0---------------3-------3---------------5-------5---------3--|--

  E|--------------------------------|--
  B|--------------------------------|--
  G|--------------------------------|--
  D|-----3p0-----3p0-----3p0--5-----|-- X3
  A|--------------------------------|--
  D|--0-------3-------5----------3--|--

  E|--------------------------------|--
  B|--------------------------------|--
  G|--------------------------------|--
  D|-----3p0-----3p0-----3p0--5-----|-- X1
  A|--1-------3---------------------|--
  D|------------------5----------3--|--

  E|--------------------|--
  B|--3-----3-----3--3--|--
  G|--2-----2-----2--2--|--
  D|--0-----0-----0--0--|-- X8
  A|--0-----0-----0--0--|--
  D|--0-----0-----0--0--|--



  PLAY WITH A SLIDE


  E|--------------------------------------|--
  B|--------------------------------------|--
  G|-----7--------7-----------------------|--
  D|--7--------7--------------8--------5--|--
  A|-----------------------8--------5-----|--
  D|--------------------------------------|--

  E|-----------------------------------------|--
  B|-----------------------------------------|--
  G|-----------------------------------------|--
  D|------12-----15--12--------8---------17--|--
  A|--12---------15--12-----8--------17------|--
  D|-----------------------------------------|--


  DITCH SLIDE AGGRESSIVELY

  E|------------------------------|--------------------------------|--
  B|------------------------------|--------------------------------|--
  G|------------------17----------|--------------------------------|--
  D|------19--17--19--------------|------19--17--19--17p0----------|--
  A|--17------------------15--17--|--17--------------------15--17--|--
  D|------------------------------|--------------------------------|--

  E|------------------------------|------------------------------|--
  B|------------------------------|------------------------------|--
  G|------------------17----------|------------------------------|--
  D|------19--17--19--------------|------19--17--19--17p0--15p0--|--
  A|--17------------------15--17--|--17--------------------------|--
  D|------------------------------|------------------------------|--

  E|----------------------------------|--
  B|----------------------------------|--
  G|----------------------------------|--
  D|----------10--12--12b-12--10--12--|--
  A|--10--12--------------------------|--
  D|----------------------------------|--

  E|-------------------------------------------------|--
  B|-------------------------------------------------|--
  G|--14--12-----10--9-----14b15--14-----10--9--7b9--|--
  D|-------------------------------------------------|--
  A|-------------------------------------------------|--
  D|-------------------------------------------------|--

  E|--------------------------------------|--
  B|--------------------------------------|--
  G|--------------------------------------|--
  D|------12--10--12------12--10p0--------|--
  A|--12--------------12------------10p0--|--
  D|--------------------------------------|--

  E|--------------------------------------|--
  B|--------------------------------------|--
  G|--------------------------------------|--
  D|------12--10--12------12--10p0--------|-- x2
  A|--12--------------10------------10p0--|--
  D|--------------------------------------|--

  with delay

  E|------------------------|--
  B|--11--13--8-----8-------|--
  G|--10--12--7-----7-------|--
  D|--8---10--5-----5-------|--
  A|--8---10--5-----5--3p0--|--
  D|--8---10--5-----5--3p0--|--

  SWELL WITH VOLUME KNOB ON GUITAR

  E|---------------|--
  B|--3--6--11--8--|--
  G|--2--5--10--7--|--
  D|--0--3--8---5--|-- X6
  A|--0--3--8---5--|--
  D|--0--3--8---5--|--

  E|----------------|--
  B|--3--6--11--20--|--
  G|--2--5--10--19--|--
  D|--0--3--8---17--|-- X1
  A|--0--3--8---17--|--
  D|--0--3--8---17--|--

  delay off

  E|---------------------|--
  B|---------------------|--
  G|---------------------|--
  D|---------------------|-- X24
  A|---------------------|--
  D|--0--0-----0h1p0-----|--

  E|--------------------|--
  B|--------------------|--
  G|--------------------|--
  D|--------------------|-- X8
  A|--------------------|--
  D|--0--0--0-----0--0--|--

  E|---------------------|--
  B|---------------------|--
  G|---------------------|--
  D|---------------------|-- X16
  A|---------------------|--
  D|--0--0-----0h1p0-----|--

  E|--------------------|--
  B|--------------------|--
  G|--------------------|--
  D|--------------------|-- X8
  A|--------------------|--
  D|--0--0--0-----0--0--|--

  E|----------------------------------------------------------|--
  B|----------------------------------------------------------|--
  G|--14----------15------14----------12------15--------------|--
  D|------15--12------12------12----------------------15--12--|-- X10
  A|------------------------------15------13------13----------|--
  D|----------------------------------------------------------|--

  E|----------------------------------------------------------|--
  B|----------------------------------------------------------|--
  G|--14----------17------14----------12------15--------------|--
  D|------15--12------12------12----------------------15--12--|-- X1
  A|------------------------------15------13------13----------|--
  D|----------------------------------------------------------|--

  E|---------------------------------------------------------------------------------|--
  B|---------------------------------------------------------------------------------|--
  G|--14---------------------------------------10--9---------------------------------|--
  D|------15--12--12-----12--12/10-----10--12---------10-------------10------10--12--|--
  A|---------------------------------------------------------10--12------12----------|--
  E|---------------------------------------------------------------------------------|--

  E|-------------------------------------|-------------------------------------|--
  B|-------------------------------------|-------------------------------------|--
  G|-------------------------------------|-------------------------------------|--
  D|--0-----3p0--0-----0--0--10p0--12p0--|--0-----3p0--0-----10p0--12p0--10p0--|-- X3
  A|-------------------------------------|-------------------------------------|--
  D|-------------------------------------|-------------------------------------|--

  E|-------------------------------------|----------------------------------------|--
  B|-------------------------------------|----------------------------------------|--
  G|-------------------------------------|----------------------------------------|--
  D|--0-----3p0--0-----0--0--10p0--12p0--|--0-----3p0--0------------------15------|--
  A|-------------------------------------|------------------------15--17------17--|--
  D|-------------------------------------|----------------15--17------------------|--

  E|------------------------------------|--
  B|------------------------------------|--
  G|------------------------------------|--
  D|----------------------------15------|-- X8
  A|--------------------15--17------17--|--
  D|--0--15--0--15--17------------------|--

  E|---------------------------------------------------------------------------|--
  B|---------------------------------------------------------------------------|--
  G|---------------------------------------------------------------------------|--
  D|------12-------12b13-----12-----12--10---------7-----10--10h12p0-----------|--
  A|--15---------15----------------------------10-----8---------------10h12p0--|--
  D|---------------------------------------------------------------------------|--

  E|-------------------------------------------------------------------------|--
  B|-------------------------------------------------------------------------|--
  G|-------------------------------------------------------------------------|--
  D|--10--12-----15--12--10--12-----12b13--12--10-------------12--10--0--10--|--
  A|--------------------------------------------------12--10-----------------|--
  D|-------------------------------------------------------------------------|--


  E|------------------------------------|-------------|--
  B|------------------------------------|-------------|--
  G|--12b14-----------------------------|-------------|--
  D|-------------------12--10h12p0------|--8------15--|--
  A|--------------------------------10--|--8------15--|--
  D|------------------------------------|-------------|--

  E|-------------------------------|--
  B|-------------------------------|--
  G|-------------------------------|--
  D|--12-----15--12-----8------3/--|--
  A|--12-----15--12-----8------3/--|--
  D|---------------------------3/--|--

  E|-----------------------|--
  B|-----3-----3-----3--3--|--
  G|-----2-----2-----2--2--|--
  D|-----0-----0-----0--0--|-- X8
  A|-----0-----0-----0--0--|--
  D|-----0-----0-----0--0--|--

  E|--------------|--
  B|--------------|--
  G|--------------|--
  D|-----4-----8--|-- X8
  A|-----5-----8--|--
  D|-----0-----8--|--