Band : Tool
Album: Fear Inoculum
Track: 1
Song : Fear Inoculum

Part : Guitar
Tuning: drop D

Tabbed: Cameron Winters
Website : CameronWinters.com

Visit : Tooltabs.net

Legend

nh - natural harmonic

ph - pinch harmonic

pm - palm mute

x - muted string

h - hammer on

p - pull off

// - slide down

\\ - slide up

b - bend

~~ - vibrato

<7> - natural harmonic

x/// - pick scrape (directions same as slide)


  |-------------------|
  |-------------------|
  |-------------------|
  |-------------------|
  |-------------------| X4
  |--7--10--5--7--10--|

  --------------------------------------------------------

  |-------------------|
  |-------------------|
  |-------------------|
  |-------------------|
  |-------------------| X2
  |--7--10--5--7--10--|

  |-----------------------|
  |-----------------------|
  |-----------------------|
  |-----------------------|
  |-----------------------| X1
  |--7--10--5--7--10--12--|

  |-------------------|
  |-------------------|
  |-------------------|
  |-------------------|
  |-------------------| X1
  |--7--10--5--7--10--|

  --------------------------------------------------------

  |-------------------|
  |-------------------|
  |-------------------|
  |-------------------|
  |-------------------| X3
  |--7--10--5--7--10--|

  |-----------------------|
  |-----------------------|
  |-----------------------|
  |-----------------------|
  |-----------------------| X1
  |--7--10--5--7--10--12--|

  --------------------------------------------------------

  |-------------------|-----------------------|
  |-------------------|-----------------------|
  |-------------------|-----------------------|
  |--7--10--5--7--10--|--7--10--5--7--10--12--|
  |--7--10--5--7--10--|--7--10--5--7--10--12--| X2
  |--7--10--5--7--10--|--7--10--5--7--10--12--|

  |-----------------------|
  |-----------------------|
  |-----------------------|
  |--7--10--5--7--10--12--|
  |--7--10--5--7--10--12--| X4
  |--7--10--5--7--10--12--|

  |------|
  |------|
  |------|
  |--/7--|
  |--/7--|
  |--/7--|

  --------------------------------------------------------

  BREAK

  --------------------------------------------------------

  2:20

  |--------------------|------------------|-------------------|------------------|
  |--------------------|------------------|-------------------|------------------|
  |--------------------|------------------|-------------------|------------------|
  |----2----2----------|----2---0---------|----2---2----------|----2---0----0h2--|
  |--0----3----3--3h5--|--0---3---3--3h5--|--0---3----3--3h5--|--0---3---3-------| X2
  |--------------------|------------------|-------------------|------------------|

  --------------------------------------------------------

  |------------------------|
  |------------------------|
  |------------------------|
  |----7b--5--7b--7b--5h7--|
  |--0---------------------|
  |------------------------|

  --------------------------------------------------------

  |-------------------|-----------------------|
  |-------------------|-----------------------|
  |-------------------|-----------------------|
  |--7--10--5--7--10--|--7--10--5--7--10--12--|
  |--7--10--5--7--10--|--7--10--5--7--10--12--| X2
  |--7--10--5--7--10--|--7--10--5--7--10--12--|

  |------|
  |------|
  |------|
  |--/7--|
  |--/7--|
  |--/7--|

  --------------------------------------------------------

  BREAK

  --------------------------------------------------------

  3:35

  |-----------------------|
  |-----------------------|
  |-----------------------|
  |-----------------------|
  |----7------12-----7p5--| X8
  |--7----10------5-------|

  --------------------------------------------------------

  3:56

  |--------------------------------------------------------|--
  |--------------------------------------------------------|--
  |--------------------------------------------------------|--
  |--2--2----------2--2------------------------------2--0--|-- X3
  |--0--0-----0h3--3--3-----3p0--3--3--5p3--5--0--3--------|--
  |------------------------------3--3-------5--------------|--

  |-----------------------------------------------|--
  |-----------------------------------------------|--
  |-----------------------------------------------|--
  |--2--2----------2--2----------0---3--10--5--7--|--
  |--0--0-----0h3--3--3-----3p0--0---3--10--5--7--|--
  |------------------------------0---3--10--5--7--|--

  --------------------------------------------------------

  |-------------------|-----------------------|
  |-------------------|-----------------------|
  |-------------------|-----------------------|
  |-------------------|-----------------------|
  |-------------------|-----------------------| X2
  |--7--10--5--7--10--|--7--10--5--7--10--12--|

  |-------------------|-----------------------|
  |-------------------|-----------------------|
  |-------------------|-----------------------|
  |--7--10--5--7--10--|--7--10--5--7--10--12--|
  |--7--10--5--7--10--|--7--10--5--7--10--12--| X2
  |--7--10--5--7--10--|--7--10--5--7--10--12--|

  --------------------------------------------------------

  5:02

  |-----------------------|
  |-----------------------|
  |-----------------------|
  |-----------------------|
  |----7------12-----7p5--| X4
  |--7----10------5-------|

  |--------------------|------------------|-------------------|------------------|
  |--------------------|------------------|-------------------|------------------|
  |--------------------|------------------|-------------------|------------------|
  |----2----2----------|----2---0---------|----2---2----------|----2---0----0h2--|
  |--0----3----3--3h5--|--0---3---3--3h5--|--0---3----3--3h5--|--0---3---3-------|
  |--------------------|------------------|-------------------|------------------|

  --------------------------------------------------------

  5:23

  |--------------------------------------------------------|--
  |--------------------------------------------------------|--
  |--------------------------------------------------------|--
  |--2--2----------2--2------------------------------2--0--|-- X3
  |--0--0-----0h3--3--3-----3p0--3--3--5p3--5--0--3--------|--
  |------------------------------3--3-------5--------------|--

  |-----------------------------------------------|--
  |-----------------------------------------------|--
  |-----------------------------------------------|--
  |--2--2----------2--2----------0---3--10--5--7--|--
  |--0--0-----0h3--3--3-----3p0--0---3--10--5--7--|--
  |------------------------------0---3--10--5--7--|--

  |------------------------------|
  |------------------------------|
  |------------------------------|
  |--3--10--5--0----3--10--5--7--|
  |--3--10--5--0----3--10--5--7--|
  |--3--10--5--0----3--10--5--7--|

  --------------------------------------------------------

  5:54

  |---------------------------------|
  |---------------------------------|
  |---------------------------------|
  |----7b--5--7b--7b-5h7----7b-5h7--|
  |--0-------------------0----------|
  |---------------------------------|

  --------------------------------------------------------

  6:28

  |---------------------------------|
  |---------------------------------|
  |---------------------------------|
  |----7--5--7--8p7-5h7----8h7-5h7--|
  |--0-------------------0----------|
  |---------------------------------|

  --------------------------------------------------------

  7:03

  |-----------------------------|
  |-----------------------------|
  |-----------------------------|
  |--7--0--10---10--0--7//////--|
  |--7--0--10---10--0--7//////--|
  |--7--0--10---10--0--7//////--|

  |-----------------------|
  |-----------------------|
  |-----------------------|
  |--7--0--10---10--0--7--|
  |--7--0--10---10--0--7--|
  |--7--0--10---10--0--7--|

  --------------------------------------------------------

  7:18

  |--------------------------------------|
  |--------------------------------------|
  |--------------------------------------|
  |--------------------------------------|
  |-(4 times)----(8 times)-----(4 times)-|
  |--7-7-7-7---7-7-7-7-7-7-7-7--7-7-7-7--|

  --------------------------------------------------------

  7:54

  |---------------------------------|
  |---------------------------------|
  |---------------------------------|
  |----7b--5--7b--7b-5h7----7b-5h7--|
  |--0-------------------0----------|
  |---------------------------------|

  --------------------------------------------------------

  8:27

  |-----------------------|
  |-----------------------|
  |-----------------------|
  |--7--0--10---10--0--7--|
  |--7--0--10---10--0--7--| X2
  |--7--0--10---10--0--7--|

  --------------------------------------------------------

  8:45

  |--------|
  |--------|
  |--------|
  |--7--0--|
  |--7--0--|
  |--7--0--|

  |------------------------------------------------|
  |------------------------------------------------|
  |------------------------------------------------|
  |--3-3-3-3---3-3-3-3-3-3-3-3---3-3-3-3---3-10-5--|
  |--3-3-3-3---3-3-3-3-3-3-3-3---3-3-3-3---3-10-5--|
  |--3-3-3-3---3-3-3-3-3-3-3-3---3-3-3-3---3-10-5--|

  |------------------------------------------------|
  |------------------------------------------------|
  |------------------------------------------------|
  |--7-7-7-7---7-7-7-7-7-7-7-7---7-7-7-7---7b---0--|
  |--7-7-7-7---7-7-7-7-7-7-7-7---7-7-7-7---7b---0--|
  |--7-7-7-7---7-7-7-7-7-7-7-7---7-7-7-7---7b---0--|

  |------------------------------------------------|
  |------------------------------------------------|
  |------------------------------------------------|
  |--3-3-3-3---3-3-3-3-3-3-3-3---3-3-3-3---3-10-5--|
  |--3-3-3-3---3-3-3-3-3-3-3-3---3-3-3-3---3-10-5--|
  |--3-3-3-3---3-3-3-3-3-3-3-3---3-3-3-3---3-10-5--|

  --------------------------------------------------------

  9:00

  |-------------|
  |-------------|
  |-------------|
  |--0----1--8--|
  |--0----1--8--|
  |--0----1--8--|

  |--------------|
  |--------------|
  |--------------|
  |--0----3--10--|
  |--0----3--10--|
  |--0----3--10--|

  --------------------------------------------------------

  9:32

  |---------------|---------------|------------------|----------------|
  |---------------|---------------|------------------|----------------|
  |---------------|---------------|------------------|----------------|
  |---------------|---------------|------------------|----------------|
  |-------3--3h5--|----5-----3h5--|----5-----3--3h5--|----5------3h5--|
  |--3h5----------|--0---3h5------|--0---3h5---------|--0----3h5------|

  |------------------|--------------------|-------------------|---------------|
  |------------------|--------------------|-------------------|---------------|
  |------------------|--------------------|-------------------|---------------|
  |------------------|--------------------|-------------------|---------------|
  |----5-----3--3h5--|----5--------0h3h5--|----5------3--3h5--|----5-----3h5--|
  |--0---3h5---------|--0----0h3h5--------|--0----3h5---------|--0---3--------|

  |--------------------|----------------|---------------------|-----------------------|
  |--------------------|----------------|---------------------|-----------------------|
  |--------------------|----------------|---------------------|-----------------------|
  |--------------------|-------3h5------|---------------------|-----------------------|
  |----5-------3--3h5--|----5------3h5--|----5--------3--3h5--|----5/12--------10h12--|
  |--0---0-3h5---------|--0-------------|--0----0-3h5---------|--0-------10h12--------|

  |--------------------------|------------------------|------------------------------------------------------------------|
  |--------------------------|------------------------|------------------------------------------------------------------|
  |--------------------------|------------------------|------------------------------------------------------------------|
  |--------------------------|------------------------|---------------------15h17---------------0h10h12------------------|
  |----12---------10--10h12--|----12/17--------15h17--|-----17--------15h17-------15h17-----------------0h10h12----------|
  |--0----0-10h12------------|--0--------15h17--------|---0-----15h17--------------------15h17------------------0h10h12--|

  --------------------------------------------------------

  10:05

  |-----------|-------------------|-----------|-----------|
  |-----------|-------------------|-----------|-----------|
  |-----------|-------------------|-----------|-----------|
  |--0-0-0-0--|--0-0-0-0/0-0-0-0--|--0-0-0-0--|--0-0-0-0--|
  |--0-0-0-0--|--0-0-0-0/0-0-0-0--|--0-0-0-0--|--0-0-0-0--|
  |--0-0-0-0--|--0-0-0-0/0-0-0-0--|--0-0-0-0--|--0-0-0-0--|

  |-------------------|-----------|-----------|-------------------|
  |-------------------|-----------|-----------|-------------------|
  |-------------------|-----------|-----------|-------------------|
  |--0-0-0-0/0-0-0-0--|--0-0-0-0--|--0-0-0-0--|--0-0-0-0/0-0-0-0--|
  |--0-0-0-0/0-0-0-0--|--0-0-0-0--|--0-0-0-0--|--0-0-0-0/0-0-0-0--|
  |--0-0-0-0/0-0-0-0--|--0-0-0-0--|--0-0-0-0--|--0-0-0-0/0-0-0-0--|

  |-------------------|-----------|-----------|
  |-------------------|-----------|-----------|
  |-------------------|-----------|-----------|
  |--0-0-0-0/0-0-0-0--|--0-0-0-0--|--0-0-0-0--|
  |--0-0-0-0/0-0-0-0--|--0-0-0-0--|--0-0-0-0--|
  |--0-0-0-0/0-0-0-0--|--0-0-0-0--|--0-0-0-0--|