Band : Tool
Album: Fear Inoculum
Track: 4
Song : Invincible

Part : Guitar
Tuning: drop D

Tabbed: Cameron Winters
Website : CameronWinters.com

Visit : Tooltabs.net

Legend

nh - natural harmonic

ph - pinch harmonic

pm - palm mute

x - muted string

h - hammer on

p - pull off

// - slide down

\\ - slide up

b - bend

~~ - vibrato

<7> - natural harmonic

x/// - pick scrape (directions same as slide)



  E|----------------------|--
  B|----------------------|--
  G|----------------------|--
  D|--------0--3p0-----0--|-- X4
  A|-----5----------5-----|--
  D|--0-------------------|--

  E|----------------------|--
  B|----------------------|--
  G|----------------------|--
  D|--------0--2p0-----0--|-- X4
  A|-----4----------4-----|--
  D|--4-------------------|--

  E|-------------------------|--
  B|-------------------------|--
  G|-------------------------|--
  D|----------0--9p0------0--|-- X4
  A|------11----------11-----|--
  D|--11---------------------|--

  E|----------------------|--
  B|----------------------|--
  G|----------------------|--
  D|--------0--2p0-----0--|-- X2
  A|-----4----------4-----|--
  D|--4-------------------|--

  E|-------------------------|--
  B|-------------------------|--
  G|-------------------------|--
  D|----------0--9p0------0--|-- X2
  A|------11----------11-----|--
  D|--11---------------------|--

  E|----------------------|--
  B|----------------------|--
  G|----------------------|--
  D|--------0--1p0-----0--|-- X2
  A|-----3----------3-----|--
  D|--1-------------------|--

  E|--------------------------------------------|--
  B|--------------------------------------------|--
  G|-----------0--------------------0-----------|--
  D|--------0-----------0--------0-----------0--|--
  A|-----8-----------3--------8-----------3-----|--
  D|--5-----------1--------5-----------1--------|--


  E|--------------------------------------------|--
  B|--------------------------------------------|--
  G|-----------0--------------------0-----------|--
  D|--------0-----------0--------0-----------0--|--
  A|-----8-----------3--------8-----------3-----|--
  D|--5-----------1--------5-----------3--------|--

  E|-----------------------------------------------------------------------|--
  B|-----------------------------------------------------------------------|--
  G|-----------------------------------------------------------------------|--
  D|--------0--3p0-----0--------0--3p0-----0--------0--3p0-----0--------0--|-- X2
  A|-----5----------5--------5----------5--------5----------5--------3-----|--
  D|--0-------------------0-------------------0-------------------3--------|--

  E|----------------------|--
  B|----------------------|--
  G|----------------------|--
  D|--------0--7p0-----0--|-- X2
  A|-----8----------8-----|--
  D|--8-------------------|--

  E|----------------------|--
  B|----------------------|--
  G|----------------------|--
  D|--------0--5p0-----0--|-- X2
  A|-----7----------7-----|--
  D|--7-------------------|--

  E|--------------------------|--
  B|--------------------------|--
  G|--------------------------|--
  D|----------0--12p0------0--|-- X2
  A|------10-----------10-----|--
  D|--10----------------------|--

  E|--------------------------------------------|--
  B|--------------------------------------------|--
  G|--------------------------------------------|--
  D|--------0--------0--------0--------0--------|-- X3
  A|-----7--------3--------5--------0-----------|--
  E|--7--------3--------5--------0--------3--0--|--

  E|-----------------------------|--
  B|-----------------------------|--
  G|-----------------------------|--
  D|--------0--------0--------0--|--
  A|-----7--------3--------5-----|--
  E|--7--------3--------5--------|--

  E|----------------------|--
  B|----------------------|--
  G|----------------------|--
  D|--------0--3p0-----0--|-- X4
  A|-----5----------5-----|--
  D|--0-------------------|--

  E|----------------------|--
  B|----------------------|--
  G|----------------------|--
  D|--------0--2p0-----0--|-- X4
  A|-----3----------3-----|--
  E|--3-------------------|--

  E|----------------------|--
  B|----------------------|--
  G|----------------------|--
  D|--------0--3p0-----0--|-- X4
  A|-----5----------5-----|--
  D|--0-------------------|--

  E|----------------------|--
  B|----------------------|--
  G|----------------------|--
  D|--------0--2p0-----0--|-- X4
  A|-----3----------3-----|--
  E|--3-------------------|--

  E|----------------------|--
  B|----------------------|--
  G|----------------------|--
  D|--------0-------------|-- X4
  A|-----0-----3p0--3--5--|--
  E|--0-------------------|--

  E|---------------------|--
  B|---------------------|--
  G|---------------------|--
  D|--------2p0-----0h2--|-- X4
  A|-----3-------3-------|--
  E|--3------------------|--

  E|--------------------------------------------|--
  B|--------------------------------------------|--
  G|--------------------------------------------|--
  D|--------0--------0--------0--------0--------|-- X3
  A|-----7--------3--------5--------0-----------|--
  E|--7--------3--------5--------0--------3--0--|--

  E|-----------------------------|--
  B|-----------------------------|--
  G|-----------------------------|--
  D|--------0--------0--------0--|--
  A|-----7--------3--------5-----|--
  E|--7--------3--------5--------|--

  E|----------------------|--
  B|----------------------|--
  G|----------------------|--
  D|--------0--3p0-----0--|-- X2
  A|-----5----------5-----|--
  D|--0-------------------|--

  E|----------------------|--
  B|----------------------|--
  G|----------------------|--
  D|--------0--7p0-----0--|--
  A|-----8----------8-----|--
  D|--8-------------------|--

  E|----------------------|--
  B|----------------------|--
  G|----------------------|--
  D|--------0--2p0-----0--|--
  A|-----3----------3-----|--
  E|--3-------------------|--

  E|----------------------|--
  B|----------------------|--
  G|----------------------|--
  D|--------0--3p0-----0--|-- X2
  A|-----5----------5-----|--
  D|--0-------------------|--

  E|----------------------|--
  B|----------------------|--
  G|----------------------|--
  D|--------0--7p0-----0--|--
  A|-----8----------8-----|--
  D|--8-------------------|--

  E|----------------------|--
  B|----------------------|--
  G|----------------------|--
  D|--------0--2p0-----0--|--
  A|-----3----------3-----|--
  D|--3-------------------|--

  E|----------------------|--
  B|----------------------|--
  G|----------------------|--
  D|--------0--3p0-----0--|-- X4
  A|-----5----------5-----|--
  D|--5-------------------|--

  E|-----|--
  B|--3--|--
  G|--2--|--
  D|--0--|--
  A|--0--|--
  D|--0--|--


  BASS BREAKDOWN


  E|----------------------|--
  B|----------------------|--
  G|----------------------|--
  D|--------0--3p0-----0--|-- X4
  A|-----5----------5-----|--
  D|--0-------------------|--

  E|----------------------|--
  B|----------------------|--
  G|----------------------|--
  D|--------0--2p0-----0--|-- X4
  A|-----3----------3-----|--
  D|--3-------------------|--

  E|----------------------|--
  B|----------------------|--
  G|----------------------|--
  D|--------0--3p0-----0--|-- X4
  A|-----5----------5-----|--
  D|--0-------------------|--

  E|----------------------|--
  B|----------------------|--
  G|----------------------|--
  D|--------0--2p0-----0--|-- X4
  A|-----3----------3-----|--
  D|--3-------------------|--

  E|----------------------|--
  B|----------------------|--
  G|----------------------|--
  D|--------0----------0--|-- X4
  A|-----0-----3p0--3-----|--
  D|--0-------------------|--

  E|---------------------|--
  B|---------------------|--
  G|---------------------|--
  D|--------2p0-----0h2--|-- X4
  A|-----3-------3-------|--
  D|--3------------------|--

  E|--------------------|--
  B|--------------------|--
  G|--------------------|--
  D|--------------------|-- X7
  A|--------------------|--
  D|--0-----0-----0--0--|--

  SWELL WITH VOLUME KNOB ON GUITAR

  E|------------------------------|--
  B|--3-----6-----3-----6-----13--|--
  G|--2-----5-----2-----5-----12--|--
  D|--0-----3-----0-----3-----10--|--
  A|--0-----3-----0-----3-----10--|--
  D|--0-----3-----0-----3-----10--|--

  E|----------------------|--
  B|----------------------|--
  G|----------------------|--
  D|--------0--3p0-----0--|-- X4
  A|-----5----------5-----|--
  D|--0-------------------|--

  E|----------------------|--
  B|----------------------|--
  G|----------------------|--
  D|--------0--2p0-----0--|-- X4
  A|-----3----------3-----|--
  D|--3-------------------|--

  E|----------------------|--
  B|----------------------|--
  G|----------------------|--
  D|--------0--3p0-----0--|-- X4
  A|-----5----------5-----|--
  D|--0-------------------|--

  E|----------------------|--
  B|----------------------|--
  G|----------------------|--
  D|--------0--2p0-----0--|-- X4
  A|-----3----------3-----|--
  D|--3-------------------|--

  E|----------------------|--
  B|----------------------|--
  G|----------------------|--
  D|--------0----------0--|-- X4
  A|-----0-----3p0--3-----|--
  D|--0-------------------|--

  E|---------------------|--
  B|---------------------|--
  G|---------------------|--
  D|--------2p0-----0h2--|-- X4
  A|-----3-------3-------|--
  D|--3------------------|--

  E|--------------------|--
  B|--------------------|--
  G|--------------------|--
  D|--------------------|--
  A|--------------------|--
  D|--0-----0-----0--0--|--

  E|--------------------------------------------|--
  B|--------------------------------------------|--
  G|--------------------------------------------|--
  D|--------0--------0--------0--------0--------|-- X7
  A|-----7--------3--------5--------0-----------|--
  D|--7--------3--------5--------0--------3--0--|--

  E|-----------------------------|--
  B|-----------------------------|--
  G|-----------------------------|--
  D|--------0--------0--------0--|--
  A|-----7--------3--------5-----|--
  D|--7--------3--------5--------|--

  E|----------------------|--
  B|----------------------|--
  G|----------------------|--
  D|--------0--3p0-----0--|-- X2
  A|-----5----------5-----|--
  D|--0-------------------|--

  E|----------------------|--
  B|----------------------|--
  G|----------------------|--
  D|--------0--7p0-----0--|--
  A|-----8----------8-----|--
  D|--8-------------------|--

  E|----------------------|--
  B|----------------------|--
  G|----------------------|--
  D|--------0--2p0-----0--|--
  A|-----3----------3-----|--
  D|--3-------------------|--

  E|----------------------|--
  B|----------------------|--
  G|----------------------|--
  D|--------0--3p0-----0--|-- X2
  A|-----5----------5-----|--
  D|--0-------------------|--

  E|----------------------|--
  B|----------------------|--
  G|----------------------|--
  D|--------0--7p0-----0--|--
  A|-----8----------8-----|--
  D|--8-------------------|--

  E|----------------------|--
  B|----------------------|--
  G|----------------------|--
  D|--------0--2p0-----0--|--
  A|-----3----------3-----|--
  D|--3-------------------|--

  E|----------------------|--
  B|----------------------|--
  G|----------------------|--
  D|--------0--3p0-----0--|-- X2
  A|-----5----------5-----|--
  D|--0-------------------|--

  E|----------------------|--
  B|----------------------|--
  G|----------------------|--
  D|--------0--7p0-----0--|--
  A|-----8----------8-----|--
  D|--8-------------------|--

  E|----------------------|--
  B|----------------------|--
  G|----------------------|--
  D|--------0--2p0-----0--|--
  A|-----3----------3-----|--
  D|--3-------------------|--

  E|----------------------|--
  B|----------------------|--
  G|----------------------|--
  D|--------0--3p0-----0--|-- X2
  A|-----5----------5-----|--
  D|--0-------------------|--

  E|----------------------|--
  B|----------------------|--
  G|----------------------|--
  D|--------0--7p0-----0--|--
  A|-----8----------8-----|--
  D|--8-------------------|--

  E|----------------------|--
  B|----------------------|--
  G|----------------------|--
  D|--------0--2p0-----0--|--
  A|-----3----------3-----|--
  D|--3-------------------|--

  E|----------------------|--
  B|----------------------|--
  G|----------------------|--
  D|--------0--3p0-----0--|-- X2
  A|-----5----------5-----|--
  D|--0-------------------|--

  E|----------------------|--
  B|----------------------|--
  G|----------------------|--
  D|--------0--7p0-----0--|--
  A|-----8----------8-----|--
  D|--8-------------------|--

  E|----------------------|--
  B|----------------------|--
  G|----------------------|--
  D|--------0--2p0-----0--|--
  A|-----3----------3-----|--
  D|--3-------------------|--

  E|----------------------|--
  B|----------------------|--
  G|----------------------|--
  D|--------0--3p0-----0--|-- X4
  A|-----5----------5-----|--
  D|--5-------------------|--

  E|--------------------------------|--
  B|--------------------------------|--
  G|--------------------------------|--
  D|--------------------------------|-- X4
  A|--------------------------------|--
  D|--0-----0-----0-----0-----0--0--|--

  E|-------------------------------------------|--
  B|-------------------------------------------|--
  G|-------------------------------------------|--
  D|-------------------------------------------|-- X4
  A|-------------------------------------------|--
  D|--0--0-----0--0-----0--0-----0--0-----0-0--|--

  E|--------------------------------------------|--
  B|--------------------------------------------|--
  G|--------------------------------------------|--
  D|--------0--------0--------0--------0--------|-- X4
  A|-----7--------3--------5--------0-----------|--
  D|--7--------3--------5--------0--------3--0--|--

  E|-----------------------------------------------|--
  B|--10--10-----6--6-----8--8-----3--3------------|--
  G|--9---9------5--5-----7--7-----2--2------------|--
  D|--7---7------3--3-----5--5-----0--0------------|-- X4
  A|--7---7------3--3-----5--5-----0--0------------|--
  D|--7---7------3--3-----5--5-----0--0-----0/3/7--|--

  E|--------------------------------------------|--
  B|--------------------------------------------|--
  G|--------------------------------------------|--
  D|--------0--------0--------0--------0--------|-- X3
  A|-----7--------3--------5--------0-----------|--
  D|--7--------3--------5--------0--------3--0--|--


  SLOW DOWN TEMPO

  E|-----------------------------|--
  B|-----------------------------|--
  G|-----------------------------|--
  D|--------0--------0--------0--|--
  A|-----7--------3--------5-----|--
  D|--7--------3--------5--------|--

  E|-----------------------|--
  B|-----------------------|--
  G|-----------------------|--
  D|-----------0--------0--|-- X20
  A|--------0--------3-----|--
  D|--0-----------3--------|--


  Adam does a technique here which I'm not sure has a name.

  Check out this guy's video for a good explanation: https://www.youtube.com/watch?v=N-IV7Ox66lY


  E|---------------------------------|--
  B|---------------------------------|--
  G|---------------------------------|--
  D|---------------------------------|-- repeat like a million fucking times
  A|---------(0)----------(0)--------|--
  D|--3p0---------0--3p0-------0--0--|--












  E|--------------------------------------------------------------------------------|--
  B|--------------------------------------------------------------------------------|--
  G|--------------------------------------------------------------------------------|--
  D|------------------------------10------------------------------------------------|-- X4
  A|--17-----15-----17-----12-----0------10-----12-----10-----12-----7-----8-----5--|--
  D|--0---0--0---0--0---0--0---0--0---0--0---0--0---0--0---0--0---0--0--0--0--0--0--|--


  E|----------------------------------------------------------|--
  B|----------------------------------------------------------|--
  G|----------------------------------------------------------|--
  D|---------10-------------------------10--------------------|--
  A|--12------------8-----10-----12------------8-----7--8--7--|--
  D|----------------------------------------------------------|--

  E|-----------------------------------|--
  B|-----------------------------------|--
  G|--10-----9--7-----12--------10--9--|--
  D|-----------------------------------|-- X4
  A|--8------7--5-----10--------8---7--|--
  D|--0---0--0--0-----0------0--0---0--|--

  E|-----------------------------------------|--
  B|-----------------------------------------|--
  G|-----------------------------------------|--
  D|-----------------------------------------|-- X3
  A|--17-----15-----17-----12-----15-----10--|--
  D|--0---0--0---0--0---0--0---0--0------0---|--

  E|--------------------------------------|--
  B|--------------------------------------|--
  G|--------------------------------------|--
  D|--------------------------------------|--
  A|--12-----10-----12-----7-----8-----5--|--
  D|--0---0--0---0--0---0--0--0--0--0--0--|--

  E|----------------------|--
  B|----------------------|--
  G|----------------------|--
  D|--------0--3p0-----0--|-- X2
  A|-----5----------5-----|--
  D|--0-------------------|--

  E|----------------------|--
  B|----------------------|--
  G|----------------------|--
  D|--------0--7p0-----0--|--
  A|-----8----------8-----|--
  D|--8-------------------|--

  E|----------------------|--
  B|----------------------|--
  G|----------------------|--
  D|--------0--2p0-----0--|--
  A|-----3----------3-----|--
  D|--3-------------------|--

  E|----------------------|--
  B|----------------------|--
  G|----------------------|--
  D|--------0--3p0-----0--|-- X2
  A|-----5----------5-----|--
  D|--0-------------------|--

  E|----------------------|--
  B|----------------------|--
  G|----------------------|--
  D|--------0--7p0-----0--|--
  A|-----8----------8-----|--
  D|--8-------------------|--

  E|----------------------|--
  B|----------------------|--
  G|----------------------|--
  D|--------0--2p0-----0--|--
  A|-----3----------3-----|--
  D|--3-------------------|--

  E|----------------------|--
  B|----------------------|--
  G|----------------------|--
  D|--------0--3p0-----0--|-- X4
  A|-----5----------5-----|--
  D|--5-------------------|--

  E|--------------------------------|--
  B|--------------------------------|--
  G|--------------------------------|--
  D|--------------------------------|-- X4
  A|--------------------------------|--
  D|--0-----0-----0-----0-----0--0--|--

  E|-------------------------------------------|--
  B|-------------------------------------------|--
  G|-------------------------------------------|--
  D|-------------------------------------------|-- X7
  A|-------------------------------------------|--
  D|--0--0-----0--0-----0--0-----0--0-----0-0--|--

  E|-----------------------|--
  B|--3-----3-----3-----3--|--
  G|--2-----2-----2-----2--|--
  D|--0-----0-----0-----0--|--
  A|--0-----0-----0-----0--|--
  D|--0-----0-----0-----0--|--