Band : Tool
Album: Fear Inoculum
Track: 2
Song : Pneuma

Part : Guitar
Tuning: drop D

Tabbed: Cameron Winters
Website : CameronWinters.com

Visit : Tooltabs.net

Legend

nh - natural harmonic

ph - pinch harmonic

pm - palm mute

x - muted string

h - hammer on

p - pull off

// - slide down

\\ - slide up

b - bend

~~ - vibrato

<7> - natural harmonic

x/// - pick scrape (directions same as slide)



  This is the full version of the riff. Adam takes away parts and builds it up.
  
  E|----------------------------------|--
  B|----------------------------------|--
  G|-----------------------------2p0--|--
  D|-----2-----2-----0-----0-----0----|--
  A|--0--0--3--3--3--3-----0--0-------|--
  D|--------3-----3-----0-----0-------|--

  E|-------------------------------------------|--
  B|-------------------------------------------|--
  G|-------------------------------------------|--
  D|--14-----15-----17-----14-----12--12-------|--
  A|--12-----15-----15-----12-----12--12-------|--
  D|--12--0--15--0--15--0--12--0--12--12--0-0--|--

  E|-----------------------------------------------|--
  B|-----------------------------------------------|--
  G|-----------------------------------------------|--
  D|--14-----15-----17-----16-----0----------(12)--|--
  A|--12-----15-----15-----17-----0------(12)------|--
  D|--12--0--15--0--15--0--0---0--0--(12)----------|--

  with delay
  E|-----------------------------------------------------------------|--
  B|-----------------------------------------------------------------|--
  G|-----------------------------------------------------------------|--
  D|--7--7-----8-----7-----5-----7--7-----3-----5-----2-----0--0-----|--
  A|--5--5-----5-----5-----5-----5--5-----5-----5-----5-----5--5-----|--
  D|--------0-----0-----0-----0--------0-----0-----0-----0--------0--|--

  with delay
  E|-------------------------------------------------|--
  B|-------------------------------------------------|--
  G|-------------------------------------------------|--
  D|--7--7-----8-----10----8-----7-----8--8-----5----|--
  A|--5--5-----5-----8-----8-----8-----8--8-----3----|--
  D|--------0-----0-----0-----0-----0--------0-----0-|--

  with delay
  E|-----------------------------------------------------------------|--
  B|-----------------------------------------------------------------|--
  G|-----------------------------------------------------------------|--
  D|--7--7-----8-----7-----5-----7--7-----3-----5-----2-----0--0-----|--
  A|--5--5-----5-----5-----5-----5--5-----5-----5-----5-----5--5-----|--
  D|--------0-----0-----0-----0--------0-----0-----0-----0--------0--|--

  with delay
  E|---------------------------|------------------------------------------|--
  B|---------------------------|------------------------------------------|--
  G|---------------------------|------------------------------------------|--
  D|--10h12-----10h12----------|--10h12----------------------10h12--------|--
  A|---------------------------|---------------------10h12----------------|--
  D|----------0----------0-----|----------0--10h12------------------0-----|--

  with delay
  E|-----------------------------------------------------------------|--
  B|-----------------------------------------------------------------|--
  G|-----------------------------------------------------------------|--
  D|--7--7-----8-----7-----5-----7--7-----3-----5-----2-----0--0-----|--
  A|--5--5-----5-----5-----5-----5--5-----5-----5-----5-----5--5-----|--
  D|--------0-----0-----0-----0--------0-----0-----0-----0--------0--|--

  with delay
  E|-------------------------------------------------|--
  B|-------------------------------------------------|--
  G|-------------------------------------------------|--
  D|--7--7-----8-----10----8-----7-----8--8-----5----|--
  A|--5--5-----5-----8-----8-----8-----8--8-----3----|--
  D|--------0-----0-----0-----0-----0--------0-----0-|--

  with delay
  E|----------------------------------------------------------------|--
  B|----------------------------------------------------------------|--
  G|----------------------------------------------------------------|--
  D|--7--7-----8-----7-----5-----7--7-----3-----5-----2-----0-------|--
  A|--5--5-----5-----5-----5-----5--5-----5-----5-----5-----5b------|--
  D|--------0-----0-----0-----0--------0-----0-----0-----0----------|--

  E|-----------------------|--
  B|-----------------3-----|--
  G|-----------------2-----|--
  D|--2-----2--2--2--0-----|--
  A|--0--3--0--3--0--0-----|--
  D|-----3-----------0-----|--

  E|-----------------------|--
  B|-----------------------|--
  G|-----------------------|--
  D|--2---------2--2-------|--
  A|--0--3------0--3-------|--
  D|-----3-----------------|--

  E|-----------------------------|--
  B|-----------------------------|--
  G|-----------------------------|--
  D|-----------------------------|--
  A|--3h5----------3h5-----------|--
  D|--------0--0--------0--0-----|--

  E|-------------------------|--
  B|-------------------------|--
  G|-------------------------|--
  D|-------------------------|--
  A|--3h5---------------3h5--|--
  D|--------0--0--3h5--------|--

  E|-----------------------------|--
  B|-----------------------------|--
  G|-----------------------------|--
  D|-----------------------------|--
  A|--3h5----------3h5-----------|--
  D|--------0--0--------0--0--0--|--

  E|-------------------------|--
  B|-------------------------|--
  G|-------------------------|--
  D|-------------------------|--
  A|--3h5---------------3h5--|--
  D|--------0--0--3h5--------|--

  with delay
  E|-----------------------------------------------------------------|--
  B|-----------------------------------------------------------------|--
  G|-----------------------------------------------------------------|--
  D|--7--7-----8-----7-----5-----7--7-----3-----5-----2-----0--0-----|--
  A|--5--5-----5-----5-----5-----5--5-----5-----5-----5-----5--5-----|--
  D|--------0-----0-----0-----0--------0-----0-----0-----0--------0--|--

  with delay
  E|-------------------------------------------------|--
  B|-------------------------------------------------|--
  G|-------------------------------------------------|--
  D|--7--7-----8-----10----8-----7-----8--8-----5----|--
  A|--5--5-----5-----8-----8-----8-----8--8-----3----|--
  D|--------0-----0-----0-----0-----0--------0-----0-|--

  with delay
  E|----------------------------------------------------------------|--
  B|----------------------------------------------------------------|--
  G|----------------------------------------------------------------|--
  D|--7--7-----8-----7-----5-----7--7-----3-----5-----2-----0-------|--
  A|--5--5-----5-----5-----5-----5--5-----5-----5-----5-----5b------|--
  D|--------0-----0-----0-----0--------0-----0-----0-----0----------|--

  E|-----------------------|--
  B|-----------------3-----|--
  G|-----------------2-----|--
  D|--2-----2--2--2--0-----|--
  A|--0--3--0--3--0--0-----|--
  D|-----3-----------0-----|--

  E|----------------------------------|--
  B|----------------------------------|--
  G|-----------------------------2p0--|--
  D|-----2-----2-----0-----0-----0----|--
  A|--0--0--3--3--3--3-----0--0-------|--
  D|--------3-----3-----0-----0-------|--

  E|-----------------------------------------------|--
  B|-----------------------------------------------|--
  G|------9------------------------------9---------|--
  D|-------------10------12--10--12--12-----10--0--|--
  A|--12-----12------12----------------------------|--
  D|-----------------------------------------------|--

  E|--------------|-----------------------------------|--------------------------|--------------|--
  B|--------------|-----------------------------------|--------------------3-----|--------------|--
  G|--------------|-----------------------------------|--------------------2-----|--------------|--
  D|--2-----------|--2--------------------------------|--2--------------0--0--0--|--2-----------|--
  A|--0--3--3--0--|--0--3--3--0-----0--------0--------|--0--3--3--0-----0--0--0--|--0--3--3--0--|--
  D|-----3--3--0--|-----3--3--0-----0--0--0--0--0--0--|-----3--3--0-----0--0--0--|-----3--3--0--|--

  E|-------------------------------------------|--
  B|-------------------------------------------|--
  G|-------------------------------------------|--
  D|--14-----15-----17-----14-----12--12-------|--
  A|--12-----15-----15-----12-----12--12-------|--
  D|--12--0--15--0--15--0--12--0--12--12--0-0--|--

  E|------------------------------|--
  B|------------------------------|--
  G|------------------------------|--
  D|--14-----15-----17-----14-----|--
  A|--12-----15-----15-----12-----|--
  D|--12--0--15--0--15--0--12--0--|--

  E|-----------------------------------------------------------------------------------------------|--
  B|-----------------------------------------------------------------------------------------------|--
  G|-----------------------------------------------------------------------------------------------|--
  D|--7--------7--------------8--------------7--------------5--------------7--------7--------------|--
  A|--5--------5--------------5--------------5--------------5--------------5--------5--------------|--
  D|-----0--0-----0--0--0--0-----0--0--0--0-----0--0--0--0-----0--0--0--0-----0--0-----0--0--0--0--|--

  E|-----------------------------------------------------------------------|--
  B|-----------------------------------------------------------------------|--
  G|-----------------------------------------------------------------------|--
  D|--3--------------5--------------2--------------0--------0--------------|--
  A|--5--------------5--------------5--------------5--------5--------------|--
  D|-----0--0--0--0-----0--0--0--0-----0--0--0--0-----0--0-----0--0--0--0--|--

  E|-------------------------------------|--
  B|-------------------------------------|--
  G|-------------------------------------|--
  D|--5/7--7--------5/7--7------7--------|--
  A|--3/5--5--------3/5--5------5--------|--
  D|----------0--0-----------0-----0--0--|--

  E|-----------------------------------------------------------------|--
  B|-----------------------------------------------------------------|--
  G|-----------------------------------------------------------------|--
  D|--5/7--7--------5/7--7------7-----------5/7--------------5/7--7--|--
  A|--3/5--5--------3/5--5------5-----------3/5--3--3--3/5---3/5--5--|--
  D|----------0--0-----------0-----0-0-0-0-------3--3--3/5-----------|--

  E|-------------------------------------|--
  B|-------------------------------------|--
  G|-------------------------------------|--
  D|--5/7--7--------5/7--7------7--------|--
  A|--3/5--5--------3/5--5------5--------|--
  D|----------0--0-----------0-----0--0--|--

  E|-----------------------------------------------------------------|--
  B|-----------------------------------------------------------------|--
  G|-----------------------------------------------------------------|--
  D|-10/7--7--------5/7--7------7-----------5/7--------------5/7--7--|--
  A|--8/5--5--------3/5--5------5-----------3/5--3--3--3/5---3/5--5--|--
  D|----------0--0-----------0-----0-0-0-0-------3--3--3/5-----------|--

  E|-----------------------------------------------------------------|--
  B|-----------------------------------------------------------------|--
  G|-----------------------------------------------------------------|--
  D|--7--7-----8-----7-----5-----7--7-----3-----5-----2-----0--0-----|--
  A|--5--5-----5-----5-----5-----5--5-----5-----5-----5-----5--5-----|--
  D|--------0-----0-----0-----0--------0-----0-----0-----0--------0--|--

  E|-------------------------------------------------|--
  B|-------------------------------------------------|--
  G|-------------------------------------------------|--
  D|--7--7-----8-----10----8-----7-----8--8-----5----|--
  A|--5--5-----5-----8-----8-----8-----8--8-----3----|--
  D|--------0-----0-----0-----0-----0--------0-----0-|--

  E|----------------------------------------------------------------|--
  B|----------------------------------------------------------------|--
  G|----------------------------------------------------------------|--
  D|--7--7-----8-----7-----5-----7--7-----3-----5-----2p0---0--0----|--
  A|--5--5-----5-----5-----5-----5--5-----5-----5-----5-----0--0----|--
  D|--------0-----0-----0-----0--------0-----0-----0--------0--0----|--

  Guitar 1 repeats this riff over and over
  E|-----------------------|--
  B|-----------------3-----|--
  G|-----------------2-----|--
  D|--2-----2--2--2--0-----|--
  A|--0--3--0--3--0--0-----|--
  D|-----3-----------0-----|--

  E|----------------------------------|--
  B|-----------------3----------------|--
  G|-----------------2----------------|--
  D|--2-----2--2--2--0----------------|--
  A|--0--3--0--3--0--0----------------|--
  D|-----3-----------0-0-0-0-0-0-0-0--|--

  E|----------------------------------|--
  B|-----------------3----------------|--
  G|-----------------2----------------|--
  D|--2-----2--2--2--0----------------|--
  A|--0--3--0--3--0--0-----0-----0----|--
  D|-----3-----------0-0-0-0-0-0-0-0--|--

  E|----------------------------------|--
  B|-----------------3----------------|--
  G|-----------------2----------------|--
  D|--2-----2--2--2--0----------------|--
  A|--0--3--0--3--0--0-----5----5/----|--
  D|-----3-----------0----------------|--

  E|------------------------|--
  B|------------------------|--
  G|------------------------|--
  D|--5/7--7/10--12p10------|--
  A|--------------------12--|--
  D|------------------------|--

  E|----------------------------------|--
  B|----------------------------------|--
  G|----------10----------------------|--
  D|--12--10------12--10------10------|--
  A|----------------------12------12--|--
  D|----------------------------------|--

  E|-------------------------------|--
  B|-------------------------------|--
  G|-------------------------------|--
  D|--12b14--10h12p10------10------|--
  A|-------------------12------12--|--
  D|-------------------------------|--

  E|------------------|--
  B|------------------|--
  G|------------------|--
  D|--12--10----------|--
  A|----------10--12--|--
  D|------------------|--

  E|--------------------------------------------------|--
  B|--10/13--13/15--15b17--17--------10--------5------|--
  G|-----------------------19b21r19--12b14r12--7b9r7--|--
  D|--------------------------------------------------|--
  A|--------------------------------------------------|--
  D|--------------------------------------------------|--

  E|----------------------------|--
  B|--3-------------------------|--
  G|--5b7r5-----5/2--0h5p2p0/5--|--
  D|----------------------------|--
  A|----------------------------|--
  D|----------------------------|--

  E|-----------------------------------------------|--
  B|-----------------------------------------------|--
  G|------9------------------------------9---------|--
  D|-------------10------12--10--12--12-----10--0--|--
  A|--12-----12------12----------------------------|--
  D|-----------------------------------------------|--

  E|-----------------------------------------------|--
  B|-----------------------------------------------|--
  G|------9------------------------------9------9--|--
  D|-------------10------12--10--12--12-----10-----|--
  A|--12-----12------12----------------------------|--
  D|-----------------------------------------------|--